Arctic monkeys

mercredi 1 août 2007

Matt' de muse revele enfin son admiration envers les arctic

251316A l' issus du set des monkeys à Benicassim 2007, le leader du groupe muse a révélé toute son admiration envers les jeunes singes.

Il dit :"Je les ai trouvés brillants, ils sont actuellement très forts et sont prêts pour leur grand concert en Angleterre la semaine prochaine. C'est vraiment bon de les voir sur scène au top de leur forme, vraiment ...".

Posté par titouan59 à 10:43 - - Commentaires [0] - Permalien [#]


I bet you look good on the dance floor

La chanson qui les a litéralement révélés en 2005.

Posté par titouan59 à 10:59 - - Commentaires [1] - Permalien [#]

The view from the afternoon

Ce clip est trop bien je trouve le plus beau des arctic monkeys je trouve. Votre opinion ?

Posté par titouan59 à 11:07 - - Commentaires [1] - Permalien [#]

Leave before the light comes on

La aussi je trouve le clip super bien est assez recherché pas comme certain clip.

Posté par titouan59 à 11:12 - - Commentaires [1] - Permalien [#]

Brianstorm !!!!!!!!

Yeaahhhh cette chanson en live c' est completement de la bombasse franchement c' est que du bon son j' étais la a lille au concert eh bin ca le faisait grave ! c' est l' une de mes préféré et c' est le premier single du second album s' intutulant "favourite worst nightmare"

Posté par titouan59 à 11:23 - - Commentaires [0] - Permalien [#]


Fluorescent adolescent ( nouveau single)

Perso le clip bin je comprends pas tout mais c' est marrant XD

Posté par titouan59 à 11:27 - - Commentaires [2] - Permalien [#]

When the sun goes down

Rien à dire tout simplement.

Clip magnifique, musique superbe et groupe super ! =D

Posté par titouan59 à 14:23 - - Commentaires [0] - Permalien [#]

Fake thales of san fransico

Trop bonnnn !!!!!

Posté par titouan59 à 14:26 - - Commentaires [0] - Permalien [#]

Arctic monkeys à taratata

Posté par titouan59 à 14:29 - - Commentaires [0] - Permalien [#]

505

Difficulté : 3/10



Couplet:
G|---------------------------------------------------------------------|
D|---------------------------------------------------------------------|
A|--5r-----------------------------------------------------------------|   x8
E|-----------------------------------0r--------------------------------|

Refrain:
G|---------------------------------------------------------------------|
D|----------7-7---------------------------------------5-5-5-5-5-5-5-5--|
A|--5-5-8-8-----8-8-5r---------------7r--------------------------------|   x4
E|---------------------------------------------------------------------|

Couplet:
G|---------------------------------------------------------------------|
D|---------------------------------------------------------------------|
A|--5r-----------------------------------------------------------------|   x4
E|-----------------------------------0r--------------------------------|

Refrain:
G|-------------------------------------------------------------------|
D|------------------------------------------------------------5-7-7--|
A|--5-5-----5-5-----5-5-----5-8-5---7-7---5-7-7---5-7-7---5-7--------|   x8
E|--------8-------8-------8-------8----------------------------------|

Final:
G|-------------------------------------------------------------------|
D|------------------------------------------------------------5-7-7--|
A|--5-5-----5-5-----5-5-----5-8-5---7-7---5-7-7---5-7-7---5-7--------|   
E|--------8-------8-------8-------8----------------------------------|

G|-------------------------------------------------------------------|
D|------------------------------------------------------------5---7--|
A|--5-5-----5-5-----5-5-----5-8-5---7-7---5-7-7---5-7-7---5-7---7----|   
E|--------8-------8-------8-------8----------------------------------|

G|-------------------------------------------------------------------|
D|------------------------------------------------------------5-7-7--|
A|--5-5-----5-5-----5-5-----5-8-5---7-7---5-7-7---5-7-7---5-7--------|   x2
E|--------8-------8-------8-------8----------------------------------|

G|--------------------|
D|--------------------|
A|--5r-------------/--|
E|--------------------|


r = laisser sonner la note
/ = slide

Posté par titouan59 à 14:53 - - Commentaires [0] - Permalien [#]

A certain romance

Difficulté : 5/10



INTRO
e |---------|
B |---------|
G |---7--9--|
D |-9-------|
A |---------|  X 16
E |---------|

e |----------|
B |----------|
G |----------|
D |--9-9-9---|
A |--9-9-9---| X 8
E |--7-7-7---|

Part i

e |----------------------14-14-14---------------16-16-16---------------18-18-18-18-18-15-12--|
B |----16-16---16-16-16-----------16---16-16-16----------16---16-16-16-----------------------|
G |------------------------------------------------------------------------------------------|
D |------------------------------------------------------------------------------------------|
A |------------------------------------------------------------------------------------------|
E |------------------------------------------------------------------------------------------|

e |--7--7-7-7-9-7---9-7---7--7-7-7---------------------------------------------------------|
B |---------------9-----9----------8-8-8-8-------------------------------------------------|
G |----------------------------------------------------------------------------------------|
D |----------------------------------------------------------------------------------------|
A |----------------------------------------------------------------------------------------|
E |----------------------------------------------------------------------------------------|

Repeat

VERSE

e |---11--------|
B |---12--------|
G |---11--------|
D |-------------|
A |-------------| X 16
E |-------------|

e |---7---------|
B |---9---------|
G |---9---------|
D |-------------|
A |-------------| X 16
E |-------------|

"You Know..."
e |-------------------------------------------------------------|
B |--9--9-7------9-7-----9-7-----9-7----------------------------|
G |---------8--6-----8-------8-------8-------6-8----9-5-6-------|
D |--------------------9-------9----------9-------6--------4----|
A |-------------------------------------------------------------| 
E |-------------------------------------------------------------|


Ab Gb E  X2

Bass Solo

e |---7-----7-7-7-7-7------------7------|
B |---9---------------9-9--------8------|
G |---9-------------------9------9------|
D |-------------------------------------|
A |-------------------------------------|
E |-------------------------------------|

e |---11--------|
B |---12--------|
G |---11--------|
D |-------------|
A |-------------| X 16
E |-------------|

e |---7---------|
B |---9---------|
G |---9---------|
D |-------------|
A |-------------| X 16
E |-------------|


e |----------------------------------------------------|
B |----------------------------------------------------|
G |----------------------------------8-----8--6--4-----|
D |---9-8-9--9/11-9-8-9---8-9-9/11-9---4-----------6--5|
A |----------------------------------------------------|  X2
E |----------------------------------------------------|

e |---------------------------------------|
B |--9-9-7-7--------9-9-9-7-7-------------|
G |----------8-8-8-------------8-8-8-8----|
D |---------------------------------------|
A |---------------------------------------| X 7
E |---------------------------------------|


e |---------------------------------------|
B |--9-9-7-7-------------7-7--------------|
G |----------8-8-6-6-8-8------8-8-6-6-4---|
D |---------------------------------------|
A |---------------------------------------|
E |---------------------------------------|

Posté par titouan59 à 14:54 - - Commentaires [0] - Permalien [#]

Bataclava

Difficulté : 3/10



Intro/Bass

G|----------------------------------------|
D|----------------------------------------|
A|----5-7-9---4---5----5-7-9---4---5------|
E|--7-------5---3----7-------5---3--------|

verse 1

guitar 1
E|----------------------------------------|
B|----------------------------------------|
G|-----------11------12-14----------------|
D|-----12-14------11----------------------|
A|--14----------12------------------------|
E|----------------------------------------|

guitar 2

E|---------------------|
B|---------------------|
G|---------------------|
D|--------------5-7----|
A|----5-7-9---4--------|
E|--7-------5----------|

chorus (im guessing this parts the chorus)
E|----------------------------------|
B|----------------------------------|
G|----------------------------------|
D|--------11------------------------|
A|-9-9-9--9--12-9-7-9--7-9--4-4-5-7-|
E|-7-7-7-----10-7-5-7--5-7--2-2-3-5-|

E|----------------------------------|
B|----------------------------------|
G|----------------------------------|
D|--------11------------------------|
A|-9-9-9--9--12-9--5-7-5-7--5-4-----|
E|-7-7-7-----10-7--3-5-3-5--3-2-----|

the other guitar just plays the root

verse 2

guitar 1
E|----------------------------------------|
B|----------------------------------------|
G|-----------11------12-14----------------|
D|-----12-14------11----------------------|
A|--14----------12------------------------|
E|----------------------------------------|

guitar 2

E|---------------------|
B|---------------------|
G|---------------------|
D|--------------5-7----|
A|----5-7-9---4--------|
E|--7-------5----------|

middle bit

E|--------------|
B|--------------|
G|--------------|
D|--9-7-5-4-9---|
A|--9-7-5-4-9---|
E|--7-5-3-2-7---|

the 2nd guitar comes in later playing this
E|---------------------------|
B|---------------------------|
G|-11---11---11---12-12-12-12|
D|-11---11---11---12-12-12-12|
A|-9----9----9----10-10-10-10|
E|---------------------------|

chorus
E|----------------------------------|
B|----------------------------------|
G|----------------------------------|
D|--------11------------------------|
A|-9-9-9--9--12-9--7-9--7-9--4-4-5-7|
E|-7-7-7-----10-7--5-7--5-7--2-2-3-5|

E|----------------------------------|
B|----------------------------------|
G|----------------------------------|
D|--------11------------------------|
A|-9-9-9--9--12-9--5-7-5-7--5-4-----|
E|-7-7-7-----10-7--3-5-3-5--3-2-----|

verse 3

guitar 1&2
E|---------------------|
B|---------------------|
G|---------------------|
D|--------------5-7----|
A|----5-7-9---4--------|
E|--7-------5----------|

bass/outro

E|---------------------|
B|---------------------|
G|---------------------|
D|---------------------|
A|----5---4---4---7----|
E|--7---0---5---3---5--|

Posté par titouan59 à 14:55 - - Commentaires [0] - Permalien [#]

Brianstorm

Difficulté : 3/10



Intro

e---
B---
G---
D-3-
A-3-
E-1-

riff

e-------------------------------------------------
B-------------------------------------------------
G-------------------------------------------------
D-------------------------------------------------
A-888888---------------------66666-77777-10101010-
E-------999999-888888-999999----------------------

e---------------------
B---------------------
G-10-----------8-9-12-
D-10-11-10--11-8-9-12-
A-8--11-10--11-6-7-10-
E----9--8---9---------

break 1

e--------------------
B--------------------
G-5-----5-5-5--5-----
D-5-6-3-5-5-5--5-6-3-
A-3-6-3-3-3-3--3-6-3-
E---4-1----------4-1-

plusieurs fois,puis

e-0
B-0
G-1
D-2
A-2
E-0

puis

e---------------------------------
B---------------------------------
G-10-10-10-10--10-11-10--10-10-10-
D-10-10-10-10--10-11-10--10-10-10-
A-8--8--8--8---8--9--8---8--8--8--
E---------------------------------

puis a la fin

e---
B---
G---
D-3-
A-3-
E-1-

Posté par titouan59 à 20:07 - - Commentaires [0] - Permalien [#]

D is for dangerous

Difficulté : 4/10



Intro :
G|---------|       
D|---------|    
A|---15r---|    
E|---------|    

Couplet :
G|--------------------------------------------|    
D|----------5--5--5/8-10-10-10-8--5--5--------|    
A|--3-3-3-6------------------------------6/4--|   x3      
E|--------------------------------------------| 

G|-----------------------------------------|    
D|----------5--5--5/8-10-10-10-8-—5--5--5--|    
A|--3-3-3-6--------------------------------|         
E|-----------------------------------------| 

Refrain :
G|-----------------------------------------------------------------------|    
D|-----------------------------------------------------------------------|    
A|--8--8-8-8--6--3-/8-8-8-8-8--7--6--3--3-/6--9--9--9--3--3-/6--9--9--9--|         
E|-----------------------------------------------------------------------| 

G|-------------------------------------------------------------|    
D|-------------------------------------------------------------|    
A|--8--8-8-8--6--3-/8-8-8-8-8--7--6--3--3-/6--1--1-1-----------|         
E|----------------------------------------------------4--4--3--| 

2e Couplet :
G|--------------------------------------------|    
D|----------5--5--5/8-10-10-10-8--5--5--------|    
A|--3-3-3-6------------------------------6/4--|   x2      
E|--------------------------------------------| 

G|----------------------------------------------|    
D|----------5--5--5/8-10-10-10-8--5--5----------|    
A|--3-3-3-6------------------------------6/4-3--|       
E|----------------------------------------------| 

(pause)

G|--------------------------------------------|    
D|----------5--5--5/8-10-10-10-8--5--5--------|    
A|--3-3-3-6------------------------------6/4--|   x8      
E|--------------------------------------------| 

Pont :
G|------------------------------------|    
D|----------5--5----------------------|    
A|--3-3-3-6-------1--3-3-3-1----------|   x9      
E|---------------------------3--3--3--|

G|-----------------------------8-12--12--8--|    
D|----------5--5-—5/8-10-10-10--------------|    
A|--3-3-3-6---------------------------------|         
E|------------------------------------------| 

2e Refrain :
G|------------------------------------------------------------------------|    
D|------------------------------------------------------------------------|    
A|--8-8-8-8-8--6--3-/8-8-8-8-8--7--6--3--3-/6--9--9--9--3--3-/6--9--9--9--|   x2      
E|------------------------------------------------------------------------| 

G|------------------------------------------------------|    
D|------------------------------------------------------|    
A|--8-8-8-8-8--6--3-/8-8-8-8-8--7--6--3--3-/6--9--9--9--|         
E|------------------------------------------------------|

G|--------------------------------------|
D|--------------------------------------|
A|--3--3-/6--9--9-—9--9--9--9--9--9--9--|
E|--------------------------------------|

G|--------------------------------------------------------------|    
D|--------------------------------------------------------------|    
A|--8-8-8-8-8--6--3-/8-8-8-8-8--7--6--3--3-/6--1--1-1-----------|         
E|-----------------------------------------------------4--4--3--| 


r = laisser sonner la note
/ = slide

Posté par titouan59 à 20:08 - - Commentaires [0] - Permalien [#]

Dancing shoes

Difficulté : 5/10



intro:
e---------------------------------------------------|
B---------------------------------------------------|
G---------------------------------------------------|   
D-----4--1--------4--1------------------2-2-2--4-2--|  x4
A----------2-----------2---4-4-4--6-4---------------|
E-4-4---------4-4-----------------------------------|

refrain:
e------------------------------------------------------|
B------------------------------------------------------|
G-------6--4------------------------6--4---------------|
D-6--4--4--4--6---------------6--4--4--4--6------------| 
A-6--4--4--2--4---------------6--4--4--2--4------------|
E-4--2--------4-4-4--2-4------4--2--------4-4-4--4-4---|

e------------------------------------------------------|
B------------------------------------------------------|
G-------6--4------------------------6--4---------------|
D-6--4--4--4--6---------------6--4--4--4--6------------| 
A-6--4--4--2--4---------------6--4--4--2--4------------|
E-4--2--------4-4-4--2-4------4--2--------4------------|


couplet:
e---------------------------------------------------------|
B---------------------------------------------------------|
G---------------------------------------------------------|
D----------------------------------------2-2-2--4-2-------|  x2
A---------------------------4-4-4--6-4--------------------|
E-4-4-4--2-4---4-4-4--2-4---------------------------------|

e---------------------------------------------------------|
B---------------------------------------------------------|
G---------------------------------------------------------|
D----------------------------------------2-2-2--4-2-------| 
A------------2--------------4-4-4--6-4--------------------|
E-4-4-4--2-4---4-4-4--2-4---------------------------------|

e---------------------------------------------------------|
B---------------------------------------------------------|
G---------------------------------------------------------|
D----------------------------------------2-2-2--4-2-------| 
A---------------------------4-4-4--6-4--------------------|
E-4-4-4--2-4---4-4-4--2-4---------------------------------|

refrain:
e------------------------------------------------------|
B------------------------------------------------------|
G-------6--4------------------------6--4---------------|
D-6--4--4--4--6---------------6--4--4--4--6------------| 
A-6--4--4--2--4---------------6--4--4--2--4------------|
E-4--2--------4-4-4--2-4------4--2--------4-4-4--4-4---|

e------------------------------------------------------|
B------------------------------------------------------|
G-------6--4------------------------6--4---------------|
D-6--4--4--4--6---------------6--4--4--4--6------------| 
A-6--4--4--2--4---------------6--4--4--2--4------------|
E-4--2--------4-4-4--2-4------4--2--------4------------|

e-------------------------------------------|
B-------------------------------------------|
G-----------------6666666699999999----------|
D-66666666666666666666666699999999----------| x4 
A-66666666666666664444444477777777----------|
E-4444444444444444--------------------------|


e---------------------------------------------------|
B---------------------------------------------------|
G---------------------------------------------------|   x2
D-----4--1--------4--1------------------2-2-2--4-2--|
A----------2-----------2---4-4-4--6-4---------------|
E-4-4---------4-4-----------------------------------|

e---------------------------------------------------|
B---------------------------------------------------|
G------------------6-6-6-6-9-9-9-9------------------|   
D--6-6-6-6-6-6-6-6-6-6-6-6-9-9-9-9------------------|  x2
A--6-6-6-6-6-6-6-6-4-4-4-4-7-7-7-7------------------|
E--4-4-4-4-4-4-4-4----------------------------------|

Outro:
e-----------------------------------------------------------|
B-----------------------------------------------------------|
G-----------------------------------------------------------|   
D--6-6-6--4-6-----6-6-6--4-6-----6-6-6--4-6-----6-6-6--4-6--|
A--6-6-6--4-6-----6-6-6--4-6-----6-6-6--4-6-----6-6-6--4-6--|
E--4-4-4--2-4-----4-4-4--2-4-----4-4-4--2-4-----4-4-4--2-4--|

Posté par titouan59 à 20:09 - - Commentaires [0] - Permalien [#]

Fake thales of san fransisco

Entre nous un peut de travaille et ca psse tout seul a la guitare. hihi

Difficulté : 4/10




Couplet 1 :
Guitare1:

E-----------------------|-------------------------
B-----------------------|-------------------------
G-----------------------|-------------------------   5x
D-----------------------|------------4--7--4------ 
A-----5---5--7--5----4x-|------5--7-----------7---
E---7---7---------------|---7---------------------

+Guitare2:

E-----9-9--7-----------
B-----9-9--7-----------
G---------------------- 4x (seulement pdt l'intro quand il chante pas)
D----------------------
A----------------------
E----------------------

Refrain: pas de guitare

Couplet 2:
Guitare 1 4x + guitare 2 16x

Refrain : pas de guitare

Theme :
    B        G         E        B
E---7----|---3-----|---7----|---7----
B---7----|---3-----|---8----|---7----
G---8----|---4-----|---9----|---8----
D---9----|---5-----|---9----|---9---- 4x
A---9----|---5-----|---7----|---9----
E---7----|---3-----|--------|---7----

Final :

E----7-7--5------
B----7-7--5------
G----------------  8x
D----------------
A----------------
E----------------

Posté par titouan59 à 20:11 - - Commentaires [0] - Permalien [#]

Futur single

ArcticMonkeysD' apres des rumeurs le prochain single du second opus des singes pourrait bien etre "Old yellow brick" a confirmer rien n' est sur maisle rumeur court apres "brianstorm" et "fluorescent adolescent" la 11 eme chanson de l' album pourrait bien prendre le relaid ...

Posté par titouan59 à 20:20 - - Commentaires [0] - Permalien [#]